Skocz do zawartości


Zdjęcie

Gitara basowa


161 replies to this topic

#21 Guest_Mrówa_*

Guest_Mrówa_*
  • Guests

Napisano 19 sierpień 2007 - 19:50

A jak coś wrzucić na forum?? Zresztą dopiero się uczę a z tabów umiem raptem roxanne do refrenu :lol:




Exit jest proste.





Najlepiej jak sie zaczniesz uczyć jazzowych utworów.
A nie jakieś tam niewiadomo co.

#22 TUFKAK_U2

TUFKAK_U2

    BejsmenT

  • Members
  • 2607 Postów
  • Płeć:Mężczyzna
  • Skąd:There is no place like home ;)

Napisano 19 sierpień 2007 - 20:00

Exit jest proste.
Najlepiej jak sie zaczniesz uczyć jazzowych utworów.
A nie jakieś tam niewiadomo co.

'No patrz WOWY tez ;) Jak mówiłem wyżej ucze się z fachowej literatury. ;) Jazz - średnio lubię. The Police to jeden z najlepszych zespołów świata a Sting jednym z najlepszych basistów ;) . Dzieki ze podpowiedziałeś jak sie zamieszcza rożne pliki na forum ;)

#23 Guest_MacPhisto18_*

Guest_MacPhisto18_*
  • Guests

Napisano 19 sierpień 2007 - 20:02

. Dzieki ze podpowiedziałeś jak sie zamieszcza rożne pliki na forum ;)


Myślę żę wystarczy nagrac, i wrzucić na jakiś serwer (np. wyslijto) a potam dać tu link.

#24 TUFKAK_U2

TUFKAK_U2

    BejsmenT

  • Members
  • 2607 Postów
  • Płeć:Mężczyzna
  • Skąd:There is no place like home ;)

Napisano 19 sierpień 2007 - 20:04

Myślę żę wystarczy nagrac, i wrzucić na jakiś serwer (np. wyslijto) a potam dać tu link.


Aha ok. Dzieki ;) Ale nie dziś :P No a skoro pan anchois wyszedl z propozycją to niech on też wrzuci swoje "wypociny" :P

#25 Guest_Mrówa_*

Guest_Mrówa_*
  • Guests

Napisano 19 sierpień 2007 - 20:04

'No patrz WOWY tez ;) Jak mówiłem wyżej ucze się z fachowej literatury.


ucz sie ucz, nauka do potęgi klucz, a jak będziesz miał dużo kluczy to zostaniesz woźnym.


Jazz - średnio lubię.



Ja np. bluesa też nie lubie, ale ćwicze, żeby sie rozwijać a nie stać w miejscu jak kołek.



The Police to jeden z najlepszych zespołów świata a Sting jednym z najlepszych basistów ;) .


znam 666 lepszych basistów.


. Dzieki ze podpowiedziałeś jak sie zamieszcza rożne pliki na forum ;)



nie ma problemu.


pan anchois



pani, jak już.

#26 TUFKAK_U2

TUFKAK_U2

    BejsmenT

  • Members
  • 2607 Postów
  • Płeć:Mężczyzna
  • Skąd:There is no place like home ;)

Napisano 19 sierpień 2007 - 20:06

ucz sie ucz, nauka do potęgi klucz, a jak będziesz miał dużo kluczy to zostaniesz woźnym.

Se gadaj :P

Ja np. bluesa też nie lubie, ale ćwicze, żeby sie rozwijać a nie stać w miejscu jak kołek.
Ok. twoja BROCHA.

znam 666 lepszych basistów.
Ta np kto Flea ??

nie ma problemu.
Życzliwy jesteś ;)


Ta pani co ty nie powiesz <_<

#27 anchois

anchois

    Użytkownik

  • Members
  • 399 Postów
  • Płeć:Kobieta

Napisano 19 sierpień 2007 - 20:07

anszuła, wrzuć też swoje ;)


nie.

kubo_klejtonie. zamieść plik np. na rapidshare albo wyslijto i wrzuć linka tutaj. tyle.

#28 Guest_Mrówa_*

Guest_Mrówa_*
  • Guests

Napisano 19 sierpień 2007 - 20:09

nie.




aha, jak tak to ok.

#29 TUFKAK_U2

TUFKAK_U2

    BejsmenT

  • Members
  • 2607 Postów
  • Płeć:Mężczyzna
  • Skąd:There is no place like home ;)

Napisano 19 sierpień 2007 - 20:10

nie.

kubo_klejtonie. zamieść plik np. na rapidshare albo wyslijto i wrzuć linka tutaj. tyle.


A czemóż to nie ?? ;) W takim razie ja nie widze sensu by wrzucać swoje ;)

#30 anchois

anchois

    Użytkownik

  • Members
  • 399 Postów
  • Płeć:Kobieta

Napisano 19 sierpień 2007 - 20:22

nie będę nic wrzucać, bo pochwalić się swoimi zadziwiającymi umiejętnościami (zwłaszcza biorąc pod uwagę mój, większy niż kuby_claytona_[...] staż) jeszcze nie mogę.

a kuba_clayton_cośtam napisał, zdaje się ->

Jak chcesz to moge wyslac probke Roxanne mam chyba gdzies nagrana na kompie ;)

więc myślałam, że ma ekshibicjonistyczne skłonności i wrzuci to. ale wrzucać nie musi. ale mógłby, to wątek ruszyłby trochę, a o to mu chyba chodziło.

#31 TUFKAK_U2

TUFKAK_U2

    BejsmenT

  • Members
  • 2607 Postów
  • Płeć:Mężczyzna
  • Skąd:There is no place like home ;)

Napisano 19 sierpień 2007 - 20:27

a kuba_clayton_cośtam napisał, zdaje się -> więc myślałam, że ma ekshibicjonistyczne skłonności i wrzuci to. ale wrzucać nie musi. ale mógłby, to wątek ruszyłby trochę, a o to mu chyba chodziło.


OK wrzucę. Ale nie dziś

#32 zewlak

zewlak

    Użytkownik

  • Members
  • 541 Postów
  • Płeć:Mężczyzna
  • Skąd:Warszawa

Napisano 23 sierpień 2007 - 10:47

To ja się dopiszę. Władam basem od około miesiąca i coś tam gram można powiedzieć :)

Bardzo fajna i przyjemna jest partia basu z Beautiful Day.

Napiszcie co jeszcze gracie z U2. Tylko coś bardziej rozwijającego niż WOWY ;)

Polecam do rozwijania się Arctic Monkeys - partie basu średnio-zaawansowane. Dla kozaków oczywiście RHCP - By the Way ;) Ktokolwiek to zagra? :P

#33 Guest_Mrówa_*

Guest_Mrówa_*
  • Guests

Napisano 23 sierpień 2007 - 11:33

Dla kozaków oczywiście RHCP - By the Way ;) Ktokolwiek to zagra? :P




zwrotka to to 3-4 dźwięki.
w kółko te same.



refren też coś koło tego.




zagraj sobie np. soul to squeeze na basie albo np. Sir Psycho sexy.
to jest dopiero \m/

#34 Sara

Sara

    hermit

  • Members
  • 1856 Postów
  • Płeć:Kobieta

Napisano 23 sierpień 2007 - 11:45

Co powinien wiedzieć basista

1. Jeśli chcesz być basistą, musisz wcześniej wiedzieć jedno: gitarzyści nie będą traktowali cię poważnie
2. W hotelu zawsze będziesz dzielił pokój z perkusistą. To dobrze - perkusista najlepszym przyjacielem muzyka. Już nie techniczny, a jeszcze nie muzyk...
3. Musisz wiedzieć, że struny, akcesoria i osprzęt do basówek są droższe, niż do normalnych gitar. Wiem - to niesprawiedliwe.
4. Twoja dziewczyna musi być przygotowana na to, że przez kilka miesięcy w roku będzie musiała cię utrzymywać.
5. Na 90% koncertów będzie cię bardzo słabo słychać. Nikt cię nie zauważy, dopóki niespodziewanie nie przestaniesz grać. Albo wszyscy inni nagle zrobią to samo...
6. Jeśli będziesz chciał zagrać solówkę - będą z ciebie kpić i pozwolą ci to zrobić. Z litości...
7. Jeśli już ją zagrasz - i zrobisz to dobrze - miej świadomość, że większość słuchaczy właśnie ciebie zapamięta z tego koncertu najlepiej.
8. Nie przejmuj się, gdy podczas grania akordami ktoś krzyknie: te, Ścierański! Albo gdy zagrasz kciukiem: ej, Pilichowski...! Musisz sobie przygotować pakiet specjalnych, soczystych obelg dla takich cwaniaków.

Dobre, dobre! ;D

3. Musisz wiedzieć, że struny, akcesoria i osprzęt do basówek są droższe, niż do normalnych gitar. Wiem - to niesprawiedliwe.
Ale z jakiej racji? <_<
"Long hair is an unpardonable offense which should be punishable by death."

#35 zewlak

zewlak

    Użytkownik

  • Members
  • 541 Postów
  • Płeć:Mężczyzna
  • Skąd:Warszawa

Napisano 23 sierpień 2007 - 12:09

zwrotka to to 3-4 dźwięki.
w kółko te same.
refren też coś koło tego.


By The Way - refren
---------------------------------------
------------X--3---X------X-X-------
------3--5-----------3--5------0---3-
-0-0----------------------------------

To mnie trochę przerasta.. To jeszcze grane Slapping'iem ;)

3. Musisz wiedzieć, że struny, akcesoria i osprzęt do basówek są droższe, niż do normalnych gitar. Wiem - to niesprawiedliwe.
Ale z jakiej racji?


Wszystko dłuższe, większe, bardziej wytrzymałe. Po prostu lepsze ;)

#36 Guest_Mrówa_*

Guest_Mrówa_*
  • Guests

Napisano 23 sierpień 2007 - 12:15

pozwolę sobie coś wkleić

Red Hot Chili Peppers
Soul to squeeze

Intro:
|-/14-------14----14h16-14------------------------------------|
|-----14h16----16---------------------------------------------|
|----------------------------0-0-0-0-0-0-0-0--0-0-0-0-0-0-0-0-|
|-------------------------------------------------------------|

|--------------------------------|
|--------------------------------|
|-0-0-0-0-0-0-0-0--0-0-0-0-0-0-0-|
|--------------------------------|


Verse: Soft
|----------------------------------------------------------------|
|--------------------0--2-3-----5/8------------------------------|
|----------3-3--2-3----------1-------5-5---5-8---8---------------|
|-1-1--3h5-------------------------------5-----6---8\---3-6--p5\-|

|--------------------------------3-3-3-3-|
|--------------------0--2-3----3---------|
|----------3-3--2-3----------1-----------|
|-1-1--3h5-------------------------------|

|---------------------------------|
|---------------------------------|
|-5-5---5-8---8-------------------|
|-----5-----6---8-8-8\---3-6----\-|

"I got a...."
|------------------------------3-3-3-----------------------------|
|--------------------0--2-3--------------------------------------|
|----------3-3--2-3----------1-------5-5---5-8---8---------------|
|-1-1--3h5-------------------------------5-----6---8\---3-6--p5\-|

|--------------------------------3-3-3-3-|
|--------------------0--2-3----3---------|
|----------3-3--2-3----------1-----------|
|-1-1--3h5-------------------------------|

|----------------------------------------|
|----------------------------------------|
|-5-5---5-8---8---10-----------8---------|
|-----5-----6---8----8-6--8h10----10--6\-|

|------------------------------3-3-3-3-----------------------------|
|--------------------0--2-3----------------------------------------|
|----------3-3--2-3----------1---------5-5---5-8---8---------------|
|-1-1--3h5---------------------------------5-----6---8\---3-6--p5\-|

Soft
|-------------------------------------------------------------|
|--------------------0--2-3-----5/8-8-------------------------|
|----------3-3--2-3----------1---------5-5---5-8---8----------|
|-1-1--3h5---------------------------------5-----6---8\---3-6-|


Chorus:
|---------------------------------------------------------|
|---7--8-10-----7-------5---------------------------------|
|-8----------------8------5--5-5--7-8--------------10---8-|
|-----------8--------------------------6--6---8h10----8---|

|-------------------------------------------------|
|---7--8-10----7-7h8p7---5------------------------|
|-8-------------------8---5--5-5-5-5-7-8----------|
|-----------8----------------------------5-5-5-6\-|


Verse 2: Soft
|-----------------------------------------------------------------|
|--------------------0--2-3-----5/8-8-8---------------------------|
|----------3-3--2-3----------1-----------5-5---5-8---8------------|
|-1-1--3h5-----------------------------------5-----6---8\---3-6-6\|

Soft
|---------------------------------------|
|--------------------0--2-3-----5/8-8-8-|
|----------3-3--2-3----------1----------|
|-1-1--3h5------------------------------|

|----------------------------------------|
|----------------------------------------|
|-5-5---5-8---8---10----------8----------|
|-----5-----6---8----8-6-8h10----10-8-6\-|


Chorus 2:
|------------------------------------------------------------|
|---7--8-10-----7-------5------------------------------------|
|-8----------------8------5--5-5--7-8------------------10--8-|
|-----------8--------------------------6-6-6--6---8h10-------|

|-------------------------------------------------------|
|---7--8-10----10-8-7-----------------------------------|
|-8------------------10\--5-5-5-5-5-5-7-8---------------|
|-----------8------------------------------5-5-5-6-6-6\-|


Verse 3: Guitar Solo
|-----------------------------3-3-3-3---------------------------------|
|--------------------0--2-3-------------------------------------------|
|----------3-3--2-3---------1---------5-5---5-8---8-------------------|
|-1-1--3h5--------------------------------5-----6---8-8-8\---3-6--p5\-|

|--------------------------------------------------------------------|
|--------------------0--2-3---5/8-8-8--------------------------------|
|----------3-3--2-3---------1---------5-5---5-8---8------------------|
|-1-1--3h5--------------------------------5-----6---8--8-8-8-8-8-8-8-|

Bridge:
|----7--10--/12-------5-----5---5------7--10--/10-------5-----5---5-|
|--------8--/10---5h7---5h7---7------------8--/12---5h7---5h7---7---|
|-5---------------------------------5-------------------------------|
|-------------------------------------------------------------------|
s p s s p s p s p s p s s p s p s p


|----7--10--/12-------5-----5---5------7--10--/10--------------|
|--------8--/10---5h7---5h7---7------------8--/12--------------|
|-5---------------------------------5--------------------------|
|---------------------------------------------------5-5-5-6-6\-|
s p s s p s p s p s p s


Verse 4: Soft
|---------------------------------------------------------------|
|--------------------0--2-3-----5/8-8-8-------------------------|
|----------3-3--2-3----------1----------5-5---5-8---8-----------|
|-1-1--3h5----------------------------------5-----6---8\---3-6\-|

|--------------------------------3-3-3-3-|
|--------------------0--2-3----3---------|
|----------3-3--2-3----------1-----------|
|-1-1--3h5-------------------------------|

|----------------------------------------|
|----------------------------------------|
|-5-5---5-8---8---10-----------8---------|
|-----5-----6---8----8-6--8h10----10-8-6-|

|-----------------------------------------------------------------|
|--------------------0--2-3-----5/8-8-----------------------------|
|----------3-3--2-3----------1--------5-5---5-8---8-----------3---|
|-1-1--3h5--------------------------------5-----6---8\---3-6\---3-|

|----------------------------------------------------------------|
|--------------------0--2-3-----5/8------------------------------|
|----------3-3--2-3----------1-------5-5---5-8---8---------------|
|-1-1--3h5-------------------------------5-----6---8-8-8\---3-6/-|


Chorus 3:
|-------------------------------------------------------------|
|---7--8-10----7-7-8-7------------------7---------------------|
|-8-------------------8-10\--5-5-5-7h8-----------------10-x-8-|
|-----------8----------------------------6-6-6-6--8h10--------|

|---------------10/12--10-------------------------|
|---7---8---10----------------------7-8-10-8-7----|
|-8---8---8------------------7-8-10------------10-|
|--------------------------8----------------------|

|--------------------------------|
|--------------------------------|
|-5-5-5-5-5-5-7-8----------------|
|-----------------5-5-5-6--6-6-6-|

|---------------10/12--10----------------------------|
|---7---8---10----------------------7-8/10-7h8-x-----|
|-8---8---8------------------7-8-10--------------10\-|
|--------------------------8-------------------------|

|---------------------------------------|
|--------------7------------------------|
|-5--5-5-5-7h8-------------------10---8-|
|-----------------6--6-6-6--8h10----8---|

|------------10/12-10----------------------------|
|---7-7-8-10-------------10-12-10--8-10-8--7-8-7-|
|-8----------------------------------------------|
|----------------------8-------------------------|

|--------------------------------|
|--------------------------------|
|-5-5-5-5-5-5-7-8----------------|
|-----------------5-5-5-6\---(1)-|



A jest to bardzo wolny utwór.
Jednak liczę na to że kiedys to opanujesz ;]

#37 TUFKAK_U2

TUFKAK_U2

    BejsmenT

  • Members
  • 2607 Postów
  • Płeć:Mężczyzna
  • Skąd:There is no place like home ;)

Napisano 23 sierpień 2007 - 21:27

Chciałbym zacząć dyskusje na temat najlepszych ?? - chyba nie można tak powiedziec o muzyku każdy ma swój styl, więc może o ulubionych basistach ? ;) Przedstawiajcie ich prosze ;)

#38 conr4d

conr4d

    Użytkownik

  • Members
  • 2255 Postów
  • Płeć:Mężczyzna
  • Skąd:Wałbrzych

Napisano 23 sierpień 2007 - 22:20

Chciałbym zacząć dyskusje na temat najlepszych ?? - chyba nie można tak powiedziec o muzyku każdy ma swój styl, więc może o ulubionych basistach ? ;) Przedstawiajcie ich prosze ;)


Załóż odpowiedni topic ;-)

#39 evay

evay

    Użytkownik

  • Members
  • 1537 Postów
  • Płeć:Kobieta
  • Skąd:Mogilany/Krakow

Napisano 24 sierpień 2007 - 19:10

ugh, tylko nie taby, nie taby!
ucz sie z nut, warto!!!

a co do basowego U2 to "Exit" bylo pierwszym kawalkiem jaki zagralam na moim basie.
teraz jednak probuje czegos ambitniejszego od U2, ale zawsze ale to zawsze bede pelna podziwu sluchajac partii Adama w "acrobat"

#40 Bombel

Bombel

    Bieszczadzki anioł

  • Members
  • 745 Postów
  • Płeć:Kobieta
  • Skąd:z lasu

Napisano 31 październik 2007 - 16:30

a w poniedziałek.... będę mieć bas :D:)
-Przypuśćmy Kubusiu, że drzewo przewróci się,gdy będziemy pod nim stali?
-Przypuśćmy, że nie-odpowiedział Kubuś Puchatek po długim namyśle.



Dodaj odpowiedź



  


Użytkownicy przeglądający ten temat: 1

0 użytkowników, 1 gości, 0 anonimowych